ISO-10303-21;
HEADER;
FILE_DESCRIPTION (( 'STEP AP203' ),
    '1' );
FILE_NAME ('Q-AZHWP-10-266-M.STEP',
    '2020-12-22T09:05:30',
    ( '' ),
    ( '' ),
    'SwSTEP 2.0',
    'SolidWorks 2020',
    '' );
FILE_SCHEMA (( 'CONFIG_CONTROL_DESIGN' ));
ENDSEC;

DATA;
#1 = DIRECTION ( 'NONE',  ( -1.000000000000000000, -0.000000000000000000, -0.000000000000000000 ) ) ;
#2 = ORIENTED_EDGE ( 'NONE', *, *, #281, .F. ) ;
#3 = ORIENTED_EDGE ( 'NONE', *, *, #53, .F. ) ;
#4 = DIRECTION ( 'NONE',  ( -1.000000000000000000, -0.000000000000000000, -0.000000000000000000 ) ) ;
#5 = AXIS2_PLACEMENT_3D ( 'NONE', #317, #152, #184 ) ;
#6 = APPROVAL_PERSON_ORGANIZATION ( #132, #236, #110 ) ;
#7 = AXIS2_PLACEMENT_3D ( 'NONE', #160, #222, #278 ) ;
#8 = ADVANCED_FACE ( 'NONE', ( #138 ), #277, .F. ) ;
#9 = DIRECTION ( 'NONE',  ( -1.000000000000000000, -0.000000000000000000, -0.000000000000000000 ) ) ;
#10 = ORIENTED_EDGE ( 'NONE', *, *, #153, .F. ) ;
#11 = CARTESIAN_POINT ( 'NONE',  ( -1.614212418857619014, 0.000000000000000000, 12.69999999999999929 ) ) ;
#12 = SHAPE_DEFINITION_REPRESENTATION ( #246, #169 ) ;
#13 = CYLINDRICAL_SURFACE ( 'NONE', #206, 5.000000000000000888 ) ;
#14 = AXIS2_PLACEMENT_3D ( 'NONE', #31, #295, #269 ) ;
#15 = PERSON_AND_ORGANIZATION_ROLE ( 'design_supplier' ) ;
#16 = CARTESIAN_POINT ( 'NONE',  ( 1.250000000000000444, 6.123233995736766282E-16, -5.000000000000000000 ) ) ;
#17 = FACE_OUTER_BOUND ( 'NONE', #210, .T. ) ;
#18 = EDGE_CURVE ( 'NONE', #205, #258, #282, .T. ) ;
#19 = DIRECTION ( 'NONE',  ( -1.000000000000000000, -0.000000000000000000, -0.000000000000000000 ) ) ;
#20 = DIRECTION ( 'NONE',  ( -0.000000000000000000, 0.000000000000000000, 1.000000000000000000 ) ) ;
#21 = DIRECTION ( 'NONE',  ( 1.000000000000000000, 0.000000000000000000, 0.000000000000000000 ) ) ;
#22 = CARTESIAN_POINT ( 'NONE',  ( -1.614212418857619014, 0.000000000000000000, 5.000000000000000888 ) ) ;
#23 = AXIS2_PLACEMENT_3D ( 'NONE', #63, #242, #106 ) ;
#24 = EDGE_LOOP ( 'NONE', ( #207, #233 ) ) ;
#25 = ORIENTED_EDGE ( 'NONE', *, *, #309, .F. ) ;
#26 = ORIENTED_EDGE ( 'NONE', *, *, #181, .T. ) ;
#27 = VERTEX_POINT ( 'NONE', #67 ) ;
#28 = CIRCLE ( 'NONE', #292, 5.000000000000001776 ) ;
#29 = ORIENTED_EDGE ( 'NONE', *, *, #268, .F. ) ;
#30 = CC_DESIGN_APPROVAL ( #75, ( #167 ) ) ;
#31 = CARTESIAN_POINT ( 'NONE',  ( -3.000000000000000000, 0.000000000000000000, 0.000000000000000000 ) ) ;
#32 = CIRCLE ( 'NONE', #126, 12.69999999999999929 ) ;
#33 = CARTESIAN_POINT ( 'NONE',  ( -1.614212418857619014, 0.000000000000000000, 0.000000000000000000 ) ) ;
#34 = DATE_AND_TIME ( #270, #322 ) ;
#35 = ADVANCED_FACE ( 'NONE', ( #172, #191 ), #195, .F. ) ;
#36 = CARTESIAN_POINT ( 'NONE',  ( -1.614212418857619014, 0.000000000000000000, 0.000000000000000000 ) ) ;
#37 = PERSON ( 'UNSPECIFIED', 'UNSPECIFIED', 'UNSPECIFIED', ('UNSPECIFIED'), ('UNSPECIFIED'), ('UNSPECIFIED') ) ;
#38 = DATE_AND_TIME ( #87, #244 ) ;
#39 = ORIENTED_EDGE ( 'NONE', *, *, #157, .F. ) ;
#40 = DIRECTION ( 'NONE',  ( -1.000000000000000000, -0.000000000000000000, -0.000000000000000000 ) ) ;
#41 = AXIS2_PLACEMENT_3D ( 'NONE', #114, #1, #203 ) ;
#42 = CARTESIAN_POINT ( 'NONE',  ( -3.000000000000000000, 0.000000000000000000, 12.69999999999999929 ) ) ;
#43 = DIRECTION ( 'NONE',  ( -1.000000000000000000, 0.000000000000000000, -0.000000000000000000 ) ) ;
#44 = APPLICATION_PROTOCOL_DEFINITION ( 'international standard', 'config_control_design', 1994, #280 ) ;
#45 = LINE ( 'NONE', #283, #50 ) ;
#46 = CIRCLE ( 'NONE', #218, 5.000000000000000888 ) ;
#47 = EDGE_LOOP ( 'NONE', ( #313, #257 ) ) ;
#48 = EDGE_LOOP ( 'NONE', ( #98, #285, #208, #262 ) ) ;
#49 = VERTEX_POINT ( 'NONE', #16 ) ;
#50 = VECTOR ( 'NONE', #171, 1000.000000000000000 ) ;
#51 = ORIENTED_EDGE ( 'NONE', *, *, #223, .F. ) ;
#52 = PRODUCT_RELATED_PRODUCT_CATEGORY ( 'detail', '', ( #137 ) ) ;
#53 = EDGE_CURVE ( 'NONE', #219, #204, #28, .T. ) ;
#54 = DIRECTION ( 'NONE',  ( 0.000000000000000000, 0.000000000000000000, 1.000000000000000000 ) ) ;
#55 = COORDINATED_UNIVERSAL_TIME_OFFSET ( 8, 0, .AHEAD. ) ;
#56 = LINE ( 'NONE', #104, #235 ) ;
#57 = CIRCLE ( 'NONE', #251, 5.000000000000000000 ) ;
#58 = DATE_TIME_ROLE ( 'creation_date' ) ;
#59 = EDGE_LOOP ( 'NONE', ( #146, #71, #117, #26 ) ) ;
#60 = FACE_OUTER_BOUND ( 'NONE', #72, .T. ) ;
#61 = PERSON_AND_ORGANIZATION ( #37, #321 ) ;
#62 = CARTESIAN_POINT ( 'NONE',  ( -1.614212418857619014, 0.000000000000000000, 0.000000000000000000 ) ) ;
#63 = CARTESIAN_POINT ( 'NONE',  ( 3.000000000000000000, 12.69999999999999929, 0.000000000000000000 ) ) ;
#64 = CARTESIAN_POINT ( 'NONE',  ( -1.614212418857619014, 0.000000000000000000, 0.000000000000000000 ) ) ;
#65 = APPROVAL_STATUS ( 'not_yet_approved' ) ;
#66 = DIRECTION ( 'NONE',  ( 1.000000000000000000, 0.000000000000000000, 0.000000000000000000 ) ) ;
#67 = CARTESIAN_POINT ( 'NONE',  ( -1.250000000000000222, 6.123233995736767268E-16, -5.000000000000000888 ) ) ;
#68 = LINE ( 'NONE', #22, #122 ) ;
#69 = LOCAL_TIME ( 17, 5, 30.00000000000000000, #136 ) ;
#70 = DIRECTION ( 'NONE',  ( 0.000000000000000000, 0.000000000000000000, 1.000000000000000000 ) ) ;
#71 = ORIENTED_EDGE ( 'NONE', *, *, #120, .T. ) ;
#72 = EDGE_LOOP ( 'NONE', ( #301, #143, #253, #39 ) ) ;
#73 = CC_DESIGN_DATE_AND_TIME_ASSIGNMENT ( #34, #129, ( #259 ) ) ;
#74 = AXIS2_PLACEMENT_3D ( 'NONE', #88, #312, #113 ) ;
#75 = APPROVAL ( #249, 'UNSPECIFIED' ) ;
#76 = VECTOR ( 'NONE', #9, 1000.000000000000000 ) ;
#77 = DIRECTION ( 'NONE',  ( -1.000000000000000000, -0.000000000000000000, -0.000000000000000000 ) ) ;
#78 = FACE_OUTER_BOUND ( 'NONE', #59, .T. ) ;
#79 = EDGE_CURVE ( 'NONE', #119, #260, #209, .T. ) ;
#80 = DATE_AND_TIME ( #164, #69 ) ;
#81 = CARTESIAN_POINT ( 'NONE',  ( -1.250000000000000222, 5.000000000000000000, 0.000000000000000000 ) ) ;
#82 = ORIENTED_EDGE ( 'NONE', *, *, #281, .T. ) ;
#83 = DIRECTION ( 'NONE',  ( 1.000000000000000000, 0.000000000000000000, 0.000000000000000000 ) ) ;
#84 = CARTESIAN_POINT ( 'NONE',  ( 1.250000000000000444, 0.000000000000000000, 0.000000000000000000 ) ) ;
#85 = APPROVAL_STATUS ( 'not_yet_approved' ) ;
#86 = DIRECTION ( 'NONE',  ( 0.000000000000000000, 0.000000000000000000, 1.000000000000000000 ) ) ;
#87 = CALENDAR_DATE ( 2020, 22, 12 ) ;
#88 = CARTESIAN_POINT ( 'NONE',  ( -3.000000000000000000, 5.000000000000000000, 0.000000000000000000 ) ) ;
#89 = AXIS2_PLACEMENT_3D ( 'NONE', #84, #193, #135 ) ;
#90 = CARTESIAN_POINT ( 'NONE',  ( 1.250000000000000222, 5.000000000000000000, 0.000000000000000000 ) ) ;
#91 = CALENDAR_DATE ( 2020, 22, 12 ) ;
#92 = CARTESIAN_POINT ( 'NONE',  ( -3.000000000000000000, 1.555301434917138433E-15, -12.69999999999999929 ) ) ;
#93 = APPLICATION_PROTOCOL_DEFINITION ( 'international standard', 'config_control_design', 1994, #237 ) ;
#94 = EDGE_LOOP ( 'NONE', ( #51, #130 ) ) ;
#95 = ADVANCED_FACE ( 'NONE', ( #263 ), #289, .F. ) ;
#96 = ORIENTED_EDGE ( 'NONE', *, *, #79, .T. ) ;
#97 = CIRCLE ( 'NONE', #144, 5.000000000000000000 ) ;
#98 = ORIENTED_EDGE ( 'NONE', *, *, #309, .T. ) ;
#99 = AXIS2_PLACEMENT_3D ( 'NONE', #334, #201, #307 ) ;
#100 = CC_DESIGN_APPROVAL ( #261, ( #311 ) ) ;
#101 = CC_DESIGN_DATE_AND_TIME_ASSIGNMENT ( #80, #58, ( #167 ) ) ;
#102 = EDGE_CURVE ( 'NONE', #49, #179, #159, .T. ) ;
#103 = CARTESIAN_POINT ( 'NONE',  ( 1.250000000000000444, 0.000000000000000000, 5.000000000000000000 ) ) ;
#104 = CARTESIAN_POINT ( 'NONE',  ( -1.614212418857619014, 6.123233995736767268E-16, -5.000000000000000888 ) ) ;
#105 = CC_DESIGN_PERSON_AND_ORGANIZATION_ASSIGNMENT ( #61, #125, ( #259 ) ) ;
#106 = DIRECTION ( 'NONE',  ( -0.000000000000000000, 0.000000000000000000, 1.000000000000000000 ) ) ;
#107 = AXIS2_PLACEMENT_3D ( 'NONE', #64, #40, #327 ) ;
#108 = CARTESIAN_POINT ( 'NONE',  ( -1.614212418857619014, 1.555301434917138433E-15, -12.69999999999999929 ) ) ;
#109 = CARTESIAN_POINT ( 'NONE',  ( 3.000000000000000000, 6.123233995736768255E-16, -5.000000000000001776 ) ) ;
#110 = APPROVAL_ROLE ( '' ) ;
#111 = APPROVAL_ROLE ( '' ) ;
#112 = AXIS2_PLACEMENT_3D ( 'NONE', #90, #43, #20 ) ;
#113 = DIRECTION ( 'NONE',  ( 0.000000000000000000, 0.000000000000000000, -1.000000000000000000 ) ) ;
#114 = CARTESIAN_POINT ( 'NONE',  ( 3.000000000000000000, 0.000000000000000000, 0.000000000000000000 ) ) ;
#115 = EDGE_LOOP ( 'NONE', ( #286, #165 ) ) ;
#116 = VERTEX_POINT ( 'NONE', #264 ) ;
#117 = ORIENTED_EDGE ( 'NONE', *, *, #124, .T. ) ;
#118 = CLOSED_SHELL ( 'NONE', ( #293, #95, #288, #8, #148, #199, #318, #279, #35, #226 ) ) ;
#119 = VERTEX_POINT ( 'NONE', #320 ) ;
#120 = EDGE_CURVE ( 'NONE', #27, #116, #297, .T. ) ;
#121 = VERTEX_POINT ( 'NONE', #92 ) ;
#122 = VECTOR ( 'NONE', #245, 1000.000000000000000 ) ;
#123 = DIRECTION ( 'NONE',  ( 1.000000000000000000, 0.000000000000000000, 0.000000000000000000 ) ) ;
#124 = EDGE_CURVE ( 'NONE', #116, #258, #68, .T. ) ;
#125 = PERSON_AND_ORGANIZATION_ROLE ( 'classification_officer' ) ;
#126 = AXIS2_PLACEMENT_3D ( 'NONE', #324, #238, #54 ) ;
#127 = PLANE ( 'NONE',  #333 ) ;
#128 = CARTESIAN_POINT ( 'NONE',  ( 3.000000000000000000, 0.000000000000000000, 5.000000000000001776 ) ) ;
#129 = DATE_TIME_ROLE ( 'classification_date' ) ;
#130 = ORIENTED_EDGE ( 'NONE', *, *, #102, .F. ) ;
#131 = DIRECTION ( 'NONE',  ( -1.000000000000000000, -0.000000000000000000, -0.000000000000000000 ) ) ;
#132 = PERSON_AND_ORGANIZATION ( #37, #321 ) ;
#133 = CIRCLE ( 'NONE', #41, 5.000000000000001776 ) ;
#134 = CARTESIAN_POINT ( 'NONE',  ( -1.614212418857619014, 0.000000000000000000, 5.000000000000000888 ) ) ;
#135 = DIRECTION ( 'NONE',  ( 0.000000000000000000, 0.000000000000000000, 1.000000000000000000 ) ) ;
#136 = COORDINATED_UNIVERSAL_TIME_OFFSET ( 8, 0, .AHEAD. ) ;
#137 = PRODUCT ( 'Q-AZHWP-10-266-M', 'Q-AZHWP-10-266-M', '', ( #141 ) ) ;
#138 = FACE_OUTER_BOUND ( 'NONE', #94, .T. ) ;
#139 = CYLINDRICAL_SURFACE ( 'NONE', #198, 5.000000000000000888 ) ;
#140 = DESIGN_CONTEXT ( 'detailed design', #237, 'design' ) ;
#141 = MECHANICAL_CONTEXT ( 'NONE', #280, 'mechanical' ) ;
#142 = CARTESIAN_POINT ( 'NONE',  ( -1.250000000000000222, 0.000000000000000000, 0.000000000000000000 ) ) ;
#143 = ORIENTED_EDGE ( 'NONE', *, *, #268, .T. ) ;
#144 = AXIS2_PLACEMENT_3D ( 'NONE', #190, #19, #214 ) ;
#145 = PERSON_AND_ORGANIZATION ( #37, #321 ) ;
#146 = ORIENTED_EDGE ( 'NONE', *, *, #303, .F. ) ;
#147 = ORIENTED_EDGE ( 'NONE', *, *, #153, .T. ) ;
#148 = ADVANCED_FACE ( 'NONE', ( #17 ), #168, .F. ) ;
#149 = APPROVAL_PERSON_ORGANIZATION ( #175, #75, #111 ) ;
#150 = ORIENTED_EDGE ( 'NONE', *, *, #223, .T. ) ;
#151 = DIRECTION ( 'NONE',  ( 0.000000000000000000, 0.000000000000000000, 1.000000000000000000 ) ) ;
#152 = DIRECTION ( 'NONE',  ( -1.000000000000000000, -0.000000000000000000, -0.000000000000000000 ) ) ;
#153 = EDGE_CURVE ( 'NONE', #182, #121, #287, .T. ) ;
#154 = ORIENTED_EDGE ( 'NONE', *, *, #120, .F. ) ;
#155 = VECTOR ( 'NONE', #275, 1000.000000000000000 ) ;
#156 = CARTESIAN_POINT ( 'NONE',  ( 1.250000000000000444, 0.000000000000000000, 0.000000000000000000 ) ) ;
#157 = EDGE_CURVE ( 'NONE', #219, #179, #163, .T. ) ;
#158 = PERSON_AND_ORGANIZATION ( #37, #321 ) ;
#159 = CIRCLE ( 'NONE', #89, 5.000000000000000000 ) ;
#160 = CARTESIAN_POINT ( 'NONE',  ( -1.614212418857619014, 0.000000000000000000, 0.000000000000000000 ) ) ;
#161 = PERSON_AND_ORGANIZATION ( #37, #321 ) ;
#162 = CARTESIAN_POINT ( 'NONE',  ( 3.000000000000000000, 0.000000000000000000, 0.000000000000000000 ) ) ;
#163 = LINE ( 'NONE', #134, #76 ) ;
#164 = CALENDAR_DATE ( 2020, 22, 12 ) ;
#165 = ORIENTED_EDGE ( 'NONE', *, *, #18, .F. ) ;
#166 = DIRECTION ( 'NONE',  ( -1.000000000000000000, -0.000000000000000000, -0.000000000000000000 ) ) ;
#167 = PRODUCT_DEFINITION ( 'UNKNOWN', '', #311, #140 ) ;
#168 = CYLINDRICAL_SURFACE ( 'NONE', #7, 5.000000000000000888 ) ;
#169 = ADVANCED_BREP_SHAPE_REPRESENTATION ( 'Q-AZHWP-10-266-M', ( #170, #306 ), #328 ) ;
#170 = MANIFOLD_SOLID_BREP ( 'Ðý×', #118 ) ;
#171 = DIRECTION ( 'NONE',  ( -1.000000000000000000, -0.000000000000000000, -0.000000000000000000 ) ) ;
#172 = FACE_OUTER_BOUND ( 'NONE', #24, .T. ) ;
#173 = FACE_OUTER_BOUND ( 'NONE', #230, .T. ) ;
#174 = EDGE_CURVE ( 'NONE', #260, #119, #32, .T. ) ;
#175 = PERSON_AND_ORGANIZATION ( #37, #321 ) ;
#176 = CC_DESIGN_PERSON_AND_ORGANIZATION_ASSIGNMENT ( #161, #15, ( #311 ) ) ;
#177 = LOCAL_TIME ( 17, 5, 30.00000000000000000, #254 ) ;
#178 =( NAMED_UNIT ( * ) SI_UNIT ( $, .STERADIAN. ) SOLID_ANGLE_UNIT ( ) );
#179 = VERTEX_POINT ( 'NONE', #103 ) ;
#180 = CIRCLE ( 'NONE', #188, 12.69999999999999929 ) ;
#181 = EDGE_CURVE ( 'NONE', #258, #205, #97, .T. ) ;
#182 = VERTEX_POINT ( 'NONE', #42 ) ;
#183 = CARTESIAN_POINT ( 'NONE',  ( -1.250000000000000222, 0.000000000000000000, 0.000000000000000000 ) ) ;
#184 = DIRECTION ( 'NONE',  ( 0.000000000000000000, 0.000000000000000000, 1.000000000000000000 ) ) ;
#185 = LINE ( 'NONE', #108, #224 ) ;
#186 = CARTESIAN_POINT ( 'NONE',  ( -3.000000000000000000, 6.123233995736766282E-16, -5.000000000000000000 ) ) ;
#187 = PERSON_AND_ORGANIZATION_ROLE ( 'creator' ) ;
#188 = AXIS2_PLACEMENT_3D ( 'NONE', #330, #131, #323 ) ;
#189 = CC_DESIGN_APPROVAL ( #236, ( #259 ) ) ;
#190 = CARTESIAN_POINT ( 'NONE',  ( -3.000000000000000000, 0.000000000000000000, 0.000000000000000000 ) ) ;
#191 = FACE_BOUND ( 'NONE', #47, .T. ) ;
#192 = FACE_OUTER_BOUND ( 'NONE', #326, .T. ) ;
#193 = DIRECTION ( 'NONE',  ( -1.000000000000000000, -0.000000000000000000, -0.000000000000000000 ) ) ;
#194 = APPROVAL_DATE_TIME ( #38, #261 ) ;
#195 = PLANE ( 'NONE',  #23 ) ;
#196 = FACE_OUTER_BOUND ( 'NONE', #256, .T. ) ;
#197 = COORDINATED_UNIVERSAL_TIME_OFFSET ( 8, 0, .AHEAD. ) ;
#198 = AXIS2_PLACEMENT_3D ( 'NONE', #33, #331, #248 ) ;
#199 = ADVANCED_FACE ( 'NONE', ( #78 ), #139, .F. ) ;
#200 = CC_DESIGN_SECURITY_CLASSIFICATION ( #259, ( #311 ) ) ;
#201 = DIRECTION ( 'NONE',  ( -1.000000000000000000, -0.000000000000000000, -0.000000000000000000 ) ) ;
#202 = DATE_AND_TIME ( #91, #177 ) ;
#203 = DIRECTION ( 'NONE',  ( 0.000000000000000000, 0.000000000000000000, 1.000000000000000000 ) ) ;
#204 = VERTEX_POINT ( 'NONE', #109 ) ;
#205 = VERTEX_POINT ( 'NONE', #186 ) ;
#206 = AXIS2_PLACEMENT_3D ( 'NONE', #36, #77, #272 ) ;
#207 = ORIENTED_EDGE ( 'NONE', *, *, #174, .F. ) ;
#208 = ORIENTED_EDGE ( 'NONE', *, *, #18, .T. ) ;
#209 = CIRCLE ( 'NONE', #316, 12.69999999999999929 ) ;
#210 = EDGE_LOOP ( 'NONE', ( #29, #3, #229, #150 ) ) ;
#211 = DIRECTION ( 'NONE',  ( 0.000000000000000000, 0.000000000000000000, 1.000000000000000000 ) ) ;
#212 = ORIENTED_EDGE ( 'NONE', *, *, #290, .T. ) ;
#213 = CARTESIAN_POINT ( 'NONE',  ( 3.000000000000000000, 0.000000000000000000, 12.69999999999999929 ) ) ;
#214 = DIRECTION ( 'NONE',  ( 0.000000000000000000, 0.000000000000000000, 1.000000000000000000 ) ) ;
#215 = APPROVAL_DATE_TIME ( #202, #75 ) ;
#216 = ORIENTED_EDGE ( 'NONE', *, *, #290, .F. ) ;
#217 = CYLINDRICAL_SURFACE ( 'NONE', #107, 12.69999999999999929 ) ;
#218 = AXIS2_PLACEMENT_3D ( 'NONE', #142, #21, #252 ) ;
#219 = VERTEX_POINT ( 'NONE', #128 ) ;
#220 = DIRECTION ( 'NONE',  ( -1.000000000000000000, -0.000000000000000000, -0.000000000000000000 ) ) ;
#221 = SECURITY_CLASSIFICATION_LEVEL ( 'unclassified' ) ;
#222 = DIRECTION ( 'NONE',  ( -1.000000000000000000, -0.000000000000000000, -0.000000000000000000 ) ) ;
#223 = EDGE_CURVE ( 'NONE', #179, #49, #57, .T. ) ;
#224 = VECTOR ( 'NONE', #220, 1000.000000000000000 ) ;
#225 = PERSON_AND_ORGANIZATION_ROLE ( 'design_owner' ) ;
#226 = ADVANCED_FACE ( 'NONE', ( #240 ), #127, .F. ) ;
#227 = CARTESIAN_POINT ( 'NONE',  ( 0.000000000000000000, 0.000000000000000000, 0.000000000000000000 ) ) ;
#228 = DIRECTION ( 'NONE',  ( 0.000000000000000000, 0.000000000000000000, 1.000000000000000000 ) ) ;
#229 = ORIENTED_EDGE ( 'NONE', *, *, #157, .T. ) ;
#230 = EDGE_LOOP ( 'NONE', ( #147, #82 ) ) ;
#231 = APPROVAL_PERSON_ORGANIZATION ( #300, #261, #298 ) ;
#232 = CC_DESIGN_PERSON_AND_ORGANIZATION_ASSIGNMENT ( #145, #225, ( #137 ) ) ;
#233 = ORIENTED_EDGE ( 'NONE', *, *, #79, .F. ) ;
#234 = CARTESIAN_POINT ( 'NONE',  ( 3.000000000000000000, 0.000000000000000000, 0.000000000000000000 ) ) ;
#235 = VECTOR ( 'NONE', #243, 1000.000000000000000 ) ;
#236 = APPROVAL ( #85, 'UNSPECIFIED' ) ;
#237 = APPLICATION_CONTEXT ( 'configuration controlled 3d designs of mechanical parts and assemblies' ) ;
#238 = DIRECTION ( 'NONE',  ( -1.000000000000000000, -0.000000000000000000, -0.000000000000000000 ) ) ;
#239 = EDGE_CURVE ( 'NONE', #260, #182, #296, .T. ) ;
#240 = FACE_OUTER_BOUND ( 'NONE', #314, .T. ) ;
#241 = APPROVAL_DATE_TIME ( #274, #236 ) ;
#242 = DIRECTION ( 'NONE',  ( -1.000000000000000000, 0.000000000000000000, -0.000000000000000000 ) ) ;
#243 = DIRECTION ( 'NONE',  ( -1.000000000000000000, -0.000000000000000000, -0.000000000000000000 ) ) ;
#244 = LOCAL_TIME ( 17, 5, 30.00000000000000000, #247 ) ;
#245 = DIRECTION ( 'NONE',  ( -1.000000000000000000, -0.000000000000000000, -0.000000000000000000 ) ) ;
#246 = PRODUCT_DEFINITION_SHAPE ( 'NONE', 'NONE',  #167 ) ;
#247 = COORDINATED_UNIVERSAL_TIME_OFFSET ( 8, 0, .AHEAD. ) ;
#248 = DIRECTION ( 'NONE',  ( 0.000000000000000000, 0.000000000000000000, 1.000000000000000000 ) ) ;
#249 = APPROVAL_STATUS ( 'not_yet_approved' ) ;
#250 = DIRECTION ( 'NONE',  ( 0.000000000000000000, 0.000000000000000000, -1.000000000000000000 ) ) ;
#251 = AXIS2_PLACEMENT_3D ( 'NONE', #156, #267, #86 ) ;
#252 = DIRECTION ( 'NONE',  ( 0.000000000000000000, 0.000000000000000000, -1.000000000000000000 ) ) ;
#253 = ORIENTED_EDGE ( 'NONE', *, *, #102, .T. ) ;
#254 = COORDINATED_UNIVERSAL_TIME_OFFSET ( 8, 0, .AHEAD. ) ;
#255 = ORIENTED_EDGE ( 'NONE', *, *, #239, .T. ) ;
#256 = EDGE_LOOP ( 'NONE', ( #216, #96, #255, #2 ) ) ;
#257 = ORIENTED_EDGE ( 'NONE', *, *, #315, .T. ) ;
#258 = VERTEX_POINT ( 'NONE', #299 ) ;
#259 = SECURITY_CLASSIFICATION ( '', '', #221 ) ;
#260 = VERTEX_POINT ( 'NONE', #213 ) ;
#261 = APPROVAL ( #65, 'UNSPECIFIED' ) ;
#262 = ORIENTED_EDGE ( 'NONE', *, *, #124, .F. ) ;
#263 = FACE_OUTER_BOUND ( 'NONE', #48, .T. ) ;
#264 = CARTESIAN_POINT ( 'NONE',  ( -1.250000000000000222, 0.000000000000000000, 5.000000000000000888 ) ) ;
#265 = AXIS2_PLACEMENT_3D ( 'NONE', #183, #123, #250 ) ;
#266 = UNCERTAINTY_MEASURE_WITH_UNIT (LENGTH_MEASURE( 1.000000000000000082E-05 ), #308, 'distance_accuracy_value', 'NONE');
#267 = DIRECTION ( 'NONE',  ( -1.000000000000000000, -0.000000000000000000, -0.000000000000000000 ) ) ;
#268 = EDGE_CURVE ( 'NONE', #204, #49, #56, .T. ) ;
#269 = DIRECTION ( 'NONE',  ( 0.000000000000000000, 0.000000000000000000, 1.000000000000000000 ) ) ;
#270 = CALENDAR_DATE ( 2020, 22, 12 ) ;
#271 = DIRECTION ( 'NONE',  ( -1.000000000000000000, -0.000000000000000000, -0.000000000000000000 ) ) ;
#272 = DIRECTION ( 'NONE',  ( 0.000000000000000000, 0.000000000000000000, 1.000000000000000000 ) ) ;
#273 = CC_DESIGN_PERSON_AND_ORGANIZATION_ASSIGNMENT ( #158, #187, ( #311 ) ) ;
#274 = DATE_AND_TIME ( #305, #329 ) ;
#275 = DIRECTION ( 'NONE',  ( -1.000000000000000000, -0.000000000000000000, -0.000000000000000000 ) ) ;
#276 = AXIS2_PLACEMENT_3D ( 'NONE', #62, #166, #228 ) ;
#277 = PLANE ( 'NONE',  #112 ) ;
#278 = DIRECTION ( 'NONE',  ( 0.000000000000000000, 0.000000000000000000, 1.000000000000000000 ) ) ;
#279 = ADVANCED_FACE ( 'NONE', ( #196 ), #217, .T. ) ;
#280 = APPLICATION_CONTEXT ( 'configuration controlled 3d designs of mechanical parts and assemblies' ) ;
#281 = EDGE_CURVE ( 'NONE', #121, #182, #180, .T. ) ;
#282 = CIRCLE ( 'NONE', #99, 5.000000000000000000 ) ;
#283 = CARTESIAN_POINT ( 'NONE',  ( -1.614212418857619014, 6.123233995736767268E-16, -5.000000000000000888 ) ) ;
#284 = FACE_BOUND ( 'NONE', #115, .T. ) ;
#285 = ORIENTED_EDGE ( 'NONE', *, *, #303, .T. ) ;
#286 = ORIENTED_EDGE ( 'NONE', *, *, #181, .F. ) ;
#287 = CIRCLE ( 'NONE', #14, 12.69999999999999929 ) ;
#288 = ADVANCED_FACE ( 'NONE', ( #60 ), #13, .F. ) ;
#289 = CYLINDRICAL_SURFACE ( 'NONE', #5, 5.000000000000000888 ) ;
#290 = EDGE_CURVE ( 'NONE', #119, #121, #185, .T. ) ;
#291 = ORIENTED_EDGE ( 'NONE', *, *, #239, .F. ) ;
#292 = AXIS2_PLACEMENT_3D ( 'NONE', #162, #271, #151 ) ;
#293 = ADVANCED_FACE ( 'NONE', ( #192 ), #302, .T. ) ;
#294 = CC_DESIGN_PERSON_AND_ORGANIZATION_ASSIGNMENT ( #332, #325, ( #167 ) ) ;
#295 = DIRECTION ( 'NONE',  ( -1.000000000000000000, -0.000000000000000000, -0.000000000000000000 ) ) ;
#296 = LINE ( 'NONE', #11, #155 ) ;
#297 = CIRCLE ( 'NONE', #265, 5.000000000000000888 ) ;
#298 = APPROVAL_ROLE ( '' ) ;
#299 = CARTESIAN_POINT ( 'NONE',  ( -3.000000000000000000, 0.000000000000000000, 5.000000000000000000 ) ) ;
#300 = PERSON_AND_ORGANIZATION ( #37, #321 ) ;
#301 = ORIENTED_EDGE ( 'NONE', *, *, #315, .F. ) ;
#302 = CYLINDRICAL_SURFACE ( 'NONE', #276, 12.69999999999999929 ) ;
#303 = EDGE_CURVE ( 'NONE', #27, #205, #45, .T. ) ;
#304 = DIRECTION ( 'NONE',  ( 0.000000000000000000, 0.000000000000000000, -1.000000000000000000 ) ) ;
#305 = CALENDAR_DATE ( 2020, 22, 12 ) ;
#306 = AXIS2_PLACEMENT_3D ( 'NONE', #227, #70, #66 ) ;
#307 = DIRECTION ( 'NONE',  ( 0.000000000000000000, 0.000000000000000000, 1.000000000000000000 ) ) ;
#308 =( LENGTH_UNIT ( ) NAMED_UNIT ( * ) SI_UNIT ( .MILLI., .METRE. ) );
#309 = EDGE_CURVE ( 'NONE', #116, #27, #46, .T. ) ;
#310 = PLANE ( 'NONE',  #74 ) ;
#311 = PRODUCT_DEFINITION_FORMATION_WITH_SPECIFIED_SOURCE ( 'ANY', '', #137, .NOT_KNOWN. ) ;
#312 = DIRECTION ( 'NONE',  ( 1.000000000000000000, 0.000000000000000000, 0.000000000000000000 ) ) ;
#313 = ORIENTED_EDGE ( 'NONE', *, *, #53, .T. ) ;
#314 = EDGE_LOOP ( 'NONE', ( #25, #154 ) ) ;
#315 = EDGE_CURVE ( 'NONE', #204, #219, #133, .T. ) ;
#316 = AXIS2_PLACEMENT_3D ( 'NONE', #234, #4, #211 ) ;
#317 = CARTESIAN_POINT ( 'NONE',  ( -1.614212418857619014, 0.000000000000000000, 0.000000000000000000 ) ) ;
#318 = ADVANCED_FACE ( 'NONE', ( #284, #173 ), #310, .F. ) ;
#319 = ORIENTED_EDGE ( 'NONE', *, *, #174, .T. ) ;
#320 = CARTESIAN_POINT ( 'NONE',  ( 3.000000000000000000, 1.555301434917138433E-15, -12.69999999999999929 ) ) ;
#321 = ORGANIZATION ( 'UNSPECIFIED', 'UNSPECIFIED', '' ) ;
#322 = LOCAL_TIME ( 17, 5, 30.00000000000000000, #197 ) ;
#323 = DIRECTION ( 'NONE',  ( 0.000000000000000000, 0.000000000000000000, 1.000000000000000000 ) ) ;
#324 = CARTESIAN_POINT ( 'NONE',  ( 3.000000000000000000, 0.000000000000000000, 0.000000000000000000 ) ) ;
#325 = PERSON_AND_ORGANIZATION_ROLE ( 'creator' ) ;
#326 = EDGE_LOOP ( 'NONE', ( #319, #212, #10, #291 ) ) ;
#327 = DIRECTION ( 'NONE',  ( 0.000000000000000000, 0.000000000000000000, 1.000000000000000000 ) ) ;
#328 =( GEOMETRIC_REPRESENTATION_CONTEXT ( 3 ) GLOBAL_UNCERTAINTY_ASSIGNED_CONTEXT ( ( #266 ) ) GLOBAL_UNIT_ASSIGNED_CONTEXT ( ( #308, #335, #178 ) ) REPRESENTATION_CONTEXT ( 'NONE', 'WORKASPACE' ) );
#329 = LOCAL_TIME ( 17, 5, 30.00000000000000000, #55 ) ;
#330 = CARTESIAN_POINT ( 'NONE',  ( -3.000000000000000000, 0.000000000000000000, 0.000000000000000000 ) ) ;
#331 = DIRECTION ( 'NONE',  ( -1.000000000000000000, -0.000000000000000000, -0.000000000000000000 ) ) ;
#332 = PERSON_AND_ORGANIZATION ( #37, #321 ) ;
#333 = AXIS2_PLACEMENT_3D ( 'NONE', #81, #83, #304 ) ;
#334 = CARTESIAN_POINT ( 'NONE',  ( -3.000000000000000000, 0.000000000000000000, 0.000000000000000000 ) ) ;
#335 =( NAMED_UNIT ( * ) PLANE_ANGLE_UNIT ( ) SI_UNIT ( $, .RADIAN. ) );
ENDSEC;
END-ISO-10303-21;
